ISO-10303-21;
HEADER;
FILE_DESCRIPTION (( 'STEP AP214' ),
    '1' );
FILE_NAME ('462169_APP-AVK 16_Beige.STP',
    '2013-11-14T13:09:45',
    ( 'arge' ),
    ( 'Microsoft' ),
    'SwSTEP 2.0',
    'SolidWorks 2013',
    '' );
FILE_SCHEMA (( 'AUTOMOTIVE_DESIGN' ));
ENDSEC;

DATA;
#1 = SHAPE_DEFINITION_REPRESENTATION ( #196, #191 ) ;
#2 = VERTEX_POINT ( 'NONE', #171 ) ;
#3 = PRESENTATION_STYLE_ASSIGNMENT (( #12 ) ) ;
#4 = VERTEX_POINT ( 'NONE', #156 ) ;
#5 = VERTEX_POINT ( 'NONE', #178 ) ;
#6 = DIRECTION ( 'NONE',  ( 1.000000000000000000, 0.0000000000000000000, 0.0000000000000000000 ) ) ;
#7 = UNCERTAINTY_MEASURE_WITH_UNIT (LENGTH_MEASURE( 1.000000000000000100E-005 ), #20, 'distance_accuracy_value', 'NONE');
#8 = DIRECTION ( 'NONE',  ( 0.0000000000000000000, 0.0000000000000000000, 1.000000000000000000 ) ) ;
#9 =( NAMED_UNIT ( * ) SI_UNIT ( $, .STERADIAN. ) SOLID_ANGLE_UNIT ( ) );
#10 =( NAMED_UNIT ( * ) PLANE_ANGLE_UNIT ( ) SI_UNIT ( $, .RADIAN. ) );
#11 =( LENGTH_UNIT ( ) NAMED_UNIT ( * ) SI_UNIT ( .MILLI., .METRE. ) );
#12 = SURFACE_STYLE_USAGE ( .BOTH. , #13 ) ;
#13 = SURFACE_SIDE_STYLE ('',( #22 ) ) ;
#14 = FILL_AREA_STYLE ('',( #60 ) ) ;
#15 = APPLICATION_CONTEXT ( 'automotive_design' ) ;
#16 = APPLICATION_PROTOCOL_DEFINITION ( 'draft international standard', 'automotive_design', 1998, #15 ) ;
#17 = EDGE_LOOP ( 'NONE', ( #263, #265, #266, #267 ) ) ;
#18 =( NAMED_UNIT ( * ) SI_UNIT ( $, .STERADIAN. ) SOLID_ANGLE_UNIT ( ) );
#19 =( NAMED_UNIT ( * ) PLANE_ANGLE_UNIT ( ) SI_UNIT ( $, .RADIAN. ) );
#20 =( LENGTH_UNIT ( ) NAMED_UNIT ( * ) SI_UNIT ( .MILLI., .METRE. ) );
#21 = PRODUCT_CONTEXT ( 'NONE', #15, 'mechanical' ) ;
#22 = SURFACE_STYLE_FILL_AREA ( #14 ) ;
#23 = DIRECTION ( 'NONE',  ( -1.000000000000000000, -1.554945054518892100E-015, 0.0000000000000000000 ) ) ;
#24 = COLOUR_RGB ( '',0.8431372549019607900, 0.8156862745098039100, 0.7529411764705882200 ) ;
#25 = CARTESIAN_POINT ( 'NONE',  ( 0.0000000000000000000, 0.0000000000000000000, 0.0000000000000000000 ) ) ;
#26 = PRODUCT ( '462169_APP-AVK 16_Beige', '462169_APP-AVK 16_Beige', '', ( #21 ) ) ;
#27 =( NAMED_UNIT ( * ) SI_UNIT ( $, .STERADIAN. ) SOLID_ANGLE_UNIT ( ) );
#28 =( NAMED_UNIT ( * ) PLANE_ANGLE_UNIT ( ) SI_UNIT ( $, .RADIAN. ) );
#29 =( LENGTH_UNIT ( ) NAMED_UNIT ( * ) SI_UNIT ( .MILLI., .METRE. ) );
#30 = VERTEX_POINT ( 'NONE', #231 ) ;
#31 = SURFACE_STYLE_USAGE ( .BOTH. , #32 ) ;
#32 = SURFACE_SIDE_STYLE ('',( #80 ) ) ;
#33 = PRODUCT_RELATED_PRODUCT_CATEGORY ( 'part', '', ( #26 ) ) ;
#34 = CARTESIAN_POINT ( 'NONE',  ( -0.1999999999999953200, 39.80000000000006800, 1.500000000000000000 ) ) ;
#35 = FILL_AREA_STYLE ('',( #59 ) ) ;
#36 = DIRECTION ( 'NONE',  ( 0.0000000000000000000, -0.0000000000000000000, -1.000000000000000000 ) ) ;
#37 = DIRECTION ( 'NONE',  ( 0.0000000000000000000, 1.000000000000000000, 0.0000000000000000000 ) ) ;
#38 = CARTESIAN_POINT ( 'NONE',  ( 49.19999999999558300, 7.598901976407779200E-014, 0.0000000000000000000 ) ) ;
#39 = CARTESIAN_POINT ( 'NONE',  ( -0.1999999999999970700, -5.421010862427522200E-016, 1.500000000000000000 ) ) ;
#40 = DIRECTION ( 'NONE',  ( 0.0000000000000000000, -1.000000000000000000, 0.0000000000000000000 ) ) ;
#41 = DIRECTION ( 'NONE',  ( -0.0000000000000000000, -1.000000000000000000, 0.0000000000000000000 ) ) ;
#42 = CARTESIAN_POINT ( 'NONE',  ( 49.19999999999558300, 39.80000000000054400, 0.0000000000000000000 ) ) ;
#43 = DIRECTION ( 'NONE',  ( -1.554945054518892100E-015, 1.000000000000000000, 0.0000000000000000000 ) ) ;
#44 = DIRECTION ( 'NONE',  ( 0.7071067811865474600, -0.7071067811865474600, 0.0000000000000000000 ) ) ;
#45 = CARTESIAN_POINT ( 'NONE',  ( 44.19999999999602400, 44.80000000000010400, -8.673617379884035500E-016 ) ) ;
#46 = DIRECTION ( 'NONE',  ( 1.000000000000000000, 0.0000000000000000000, 0.0000000000000000000 ) ) ;
#47 = CARTESIAN_POINT ( 'NONE',  ( 4.800000000000035300, 44.80000000000010400, 0.0000000000000000000 ) ) ;
#48 = DIRECTION ( 'NONE',  ( 0.7071067811865474600, 0.7071067811865476800, 0.0000000000000000000 ) ) ;
#49 = APPLICATION_PROTOCOL_DEFINITION ( 'draft international standard', 'automotive_design', 1998, #50 ) ;
#50 = APPLICATION_CONTEXT ( 'automotive_design' ) ;
#51 = DIRECTION ( 'NONE',  ( 0.0000000000000000000, 0.0000000000000000000, 1.000000000000000000 ) ) ;
#52 = CARTESIAN_POINT ( 'NONE',  ( 49.19999999999558300, 39.80000000000054400, 1.500000000000000000 ) ) ;
#53 = DIRECTION ( 'NONE',  ( -1.000000000000000000, 0.0000000000000000000, 0.0000000000000000000 ) ) ;
#54 = DIRECTION ( 'NONE',  ( 4.358601698434180900E-017, 1.000000000000000000, 0.0000000000000000000 ) ) ;
#55 = PRESENTATION_STYLE_ASSIGNMENT (( #31 ) ) ;
#56 = CARTESIAN_POINT ( 'NONE',  ( -0.1999999999999970700, 8.944667923005411600E-016, 0.0000000000000000000 ) ) ;
#57 = COLOUR_RGB ( '',0.8431372549019607900, 0.8156862745098039100, 0.7529411764705882200 ) ;
#58 = VECTOR ( 'NONE', #37, 1000.000000000000000 ) ;
#59 = FILL_AREA_STYLE_COLOUR ( '', #57 ) ;
#60 = FILL_AREA_STYLE_COLOUR ( '', #24 ) ;
#61 = EDGE_CURVE ( 'NONE', #245, #276, #172, .T. ) ;
#62 = VECTOR ( 'NONE', #41, 1000.000000000000000 ) ;
#63 = LINE ( 'NONE', #39, #58 ) ;
#64 = DIRECTION ( 'NONE',  ( -1.000000000000000000, 0.0000000000000000000, -0.0000000000000000000 ) ) ;
#65 = DIRECTION ( 'NONE',  ( 0.0000000000000000000, 0.0000000000000000000, -1.000000000000000000 ) ) ;
#66 = VECTOR ( 'NONE', #44, 1000.000000000000100 ) ;
#67 = CARTESIAN_POINT ( 'NONE',  ( -0.1999999999999953200, 39.80000000000006800, 0.0000000000000000000 ) ) ;
#68 = LINE ( 'NONE', #42, #62 ) ;
#69 = VECTOR ( 'NONE', #46, 1000.000000000000000 ) ;
#70 = CARTESIAN_POINT ( 'NONE',  ( 2.954450920022999600E-015, -5.421010862427522200E-016, 0.0000000000000000000 ) ) ;
#71 = LINE ( 'NONE', #45, #66 ) ;
#72 = VECTOR ( 'NONE', #48, 1000.000000000000000 ) ;
#73 = LINE ( 'NONE', #47, #69 ) ;
#74 = CARTESIAN_POINT ( 'NONE',  ( 4.800000000000035300, 44.80000000000010400, 1.500000000000000000 ) ) ;
#75 = LINE ( 'NONE', #56, #84 ) ;
#76 = PLANE ( 'NONE',  #306 ) ;
#77 = DIRECTION ( 'NONE',  ( 0.7071067811865474600, 0.7071067811865476800, 0.0000000000000000000 ) ) ;
#78 = DIRECTION ( 'NONE',  ( 0.7071067811865476800, -0.7071067811865474600, 0.0000000000000000000 ) ) ;
#79 = FACE_OUTER_BOUND ( 'NONE', #261, .T. ) ;
#80 = SURFACE_STYLE_FILL_AREA ( #35 ) ;
#81 = DIRECTION ( 'NONE',  ( -1.000000000000000000, -1.554945054518892100E-015, 0.0000000000000000000 ) ) ;
#82 = PLANE ( 'NONE',  #293 ) ;
#83 = VECTOR ( 'NONE', #81, 1000.000000000000000 ) ;
#84 = VECTOR ( 'NONE', #54, 1000.000000000000000 ) ;
#85 = CARTESIAN_POINT ( 'NONE',  ( 48.99999999999557300, -0.1999999999999243200, 0.0000000000000000000 ) ) ;
#86 = VECTOR ( 'NONE', #129, 1000.000000000000000 ) ;
#87 = PLANE ( 'NONE',  #309 ) ;
#88 = DIRECTION ( 'NONE',  ( -1.000000000000000000, 0.0000000000000000000, 0.0000000000000000000 ) ) ;
#89 = LINE ( 'NONE', #85, #83 ) ;
#90 = DIRECTION ( 'NONE',  ( -0.0000000000000000000, -0.0000000000000000000, -1.000000000000000000 ) ) ;
#91 = LINE ( 'NONE', #67, #72 ) ;
#92 = CARTESIAN_POINT ( 'NONE',  ( 48.99999999999557300, 7.565020658517607200E-014, 0.0000000000000000000 ) ) ;
#93 = CARTESIAN_POINT ( 'NONE',  ( 49.19999999999558300, 7.632783294297951200E-014, 1.500000000000000000 ) ) ;
#94 = VECTOR ( 'NONE', #118, 1000.000000000000000 ) ;
#95 = CIRCLE ( 'NONE', #296, 0.1999999999999987900 ) ;
#96 = DIRECTION ( 'NONE',  ( -1.000000000000000000, 0.0000000000000000000, 0.0000000000000000000 ) ) ;
#97 = DIRECTION ( 'NONE',  ( -0.0000000000000000000, -0.0000000000000000000, -1.000000000000000000 ) ) ;
#98 = CARTESIAN_POINT ( 'NONE',  ( 48.99999999999557300, 7.565020658517607200E-014, 1.500000000000000000 ) ) ;
#99 = CARTESIAN_POINT ( 'NONE',  ( 48.99999999999557300, -0.1999999999999243200, 1.500000000000000000 ) ) ;
#100 = LINE ( 'NONE', #93, #86 ) ;
#101 = PLANE ( 'NONE',  #307 ) ;
#102 = DIRECTION ( 'NONE',  ( -1.000000000000000000, 0.0000000000000000000, -0.0000000000000000000 ) ) ;
#103 = LINE ( 'NONE', #99, #94 ) ;
#104 = DIRECTION ( 'NONE',  ( -1.000000000000000000, 0.0000000000000000000, 0.0000000000000000000 ) ) ;
#105 = VECTOR ( 'NONE', #150, 1000.000000000000000 ) ;
#106 = DIRECTION ( 'NONE',  ( 0.0000000000000000000, 0.0000000000000000000, -1.000000000000000000 ) ) ;
#107 = CIRCLE ( 'NONE', #302, 0.1999999999999999800 ) ;
#108 = DIRECTION ( 'NONE',  ( -0.0000000000000000000, -0.0000000000000000000, -1.000000000000000000 ) ) ;
#109 = FACE_OUTER_BOUND ( 'NONE', #277, .T. ) ;
#110 = CARTESIAN_POINT ( 'NONE',  ( 2.954450920022999600E-015, -5.421010862427522200E-016, 0.0000000000000000000 ) ) ;
#111 = LINE ( 'NONE', #135, #105 ) ;
#112 = CARTESIAN_POINT ( 'NONE',  ( 4.800000000000035300, 44.80000000000010400, 1.500000000000000000 ) ) ;
#113 = VECTOR ( 'NONE', #134, 1000.000000000000000 ) ;
#114 = CIRCLE ( 'NONE', #299, 0.1999999999999987900 ) ;
#115 = VECTOR ( 'NONE', #141, 1000.000000000000000 ) ;
#116 = LINE ( 'NONE', #136, #113 ) ;
#117 = VECTOR ( 'NONE', #145, 1000.000000000000100 ) ;
#118 = DIRECTION ( 'NONE',  ( -0.0000000000000000000, -0.0000000000000000000, -1.000000000000000000 ) ) ;
#119 = CIRCLE ( 'NONE', #304, 0.1999999999999999800 ) ;
#120 = VECTOR ( 'NONE', #162, 1000.000000000000000 ) ;
#121 = CARTESIAN_POINT ( 'NONE',  ( 49.19999999999558300, 39.80000000000054400, 1.500000000000000200 ) ) ;
#122 = LINE ( 'NONE', #176, #120 ) ;
#123 = DIRECTION ( 'NONE',  ( -1.000000000000000000, 0.0000000000000000000, 0.0000000000000000000 ) ) ;
#124 = VECTOR ( 'NONE', #181, 1000.000000000000000 ) ;
#125 = DIRECTION ( 'NONE',  ( -0.0000000000000000000, -0.0000000000000000000, -1.000000000000000000 ) ) ;
#126 = LINE ( 'NONE', #180, #139 ) ;
#127 = CYLINDRICAL_SURFACE ( 'NONE', #300, 0.1999999999999999800 ) ;
#128 = CARTESIAN_POINT ( 'NONE',  ( 2.954450920022999600E-015, -5.421010862427522200E-016, 1.500000000000000000 ) ) ;
#129 = DIRECTION ( 'NONE',  ( 0.0000000000000000000, 0.0000000000000000000, 1.000000000000000000 ) ) ;
#130 = CARTESIAN_POINT ( 'NONE',  ( -0.1999999999999970700, 1.761828530288944700E-016, 1.500000000000000000 ) ) ;
#131 = DIRECTION ( 'NONE',  ( 1.000000000000000000, -4.358601698434180900E-017, 0.0000000000000000000 ) ) ;
#132 = PLANE ( 'NONE',  #311 ) ;
#133 = LINE ( 'NONE', #198, #124 ) ;
#134 = DIRECTION ( 'NONE',  ( 0.0000000000000000000, 0.0000000000000000000, 1.000000000000000000 ) ) ;
#135 = CARTESIAN_POINT ( 'NONE',  ( -0.1999999999999970700, 8.944667923005411600E-016, 1.500000000000000000 ) ) ;
#136 = CARTESIAN_POINT ( 'NONE',  ( 6.938893903907228400E-015, -0.2000000000000005100, 1.500000000000000000 ) ) ;
#137 = FACE_OUTER_BOUND ( 'NONE', #262, .T. ) ;
#138 = LINE ( 'NONE', #166, #115 ) ;
#139 = VECTOR ( 'NONE', #165, 1000.000000000000000 ) ;
#140 = FACE_OUTER_BOUND ( 'NONE', #248, .T. ) ;
#141 = DIRECTION ( 'NONE',  ( -0.0000000000000000000, -0.0000000000000000000, -1.000000000000000000 ) ) ;
#142 = CARTESIAN_POINT ( 'NONE',  ( 49.19999999999558300, 39.80000000000054400, -2.891205793294678300E-016 ) ) ;
#143 = VECTOR ( 'NONE', #195, 1000.000000000000000 ) ;
#144 = VECTOR ( 'NONE', #188, 1000.000000000000000 ) ;
#145 = DIRECTION ( 'NONE',  ( 0.7071067811865474600, -0.7071067811865474600, 0.0000000000000000000 ) ) ;
#146 = CARTESIAN_POINT ( 'NONE',  ( -0.1999999999999980100, 39.80000000000006100, 1.500000000000000200 ) ) ;
#147 = PLANE ( 'NONE',  #313 ) ;
#148 = CARTESIAN_POINT ( 'NONE',  ( 2.954450920022999600E-015, -5.421010862427522200E-016, 1.500000000000000000 ) ) ;
#149 = LINE ( 'NONE', #152, #117 ) ;
#150 = DIRECTION ( 'NONE',  ( 0.0000000000000000000, -0.0000000000000000000, -1.000000000000000000 ) ) ;
#151 = LINE ( 'NONE', #190, #144 ) ;
#152 = CARTESIAN_POINT ( 'NONE',  ( 44.19999999999602400, 44.80000000000010400, 1.500000000000000000 ) ) ;
#153 = DIRECTION ( 'NONE',  ( 4.358601698434180900E-017, 1.000000000000000000, 0.0000000000000000000 ) ) ;
#154 = CYLINDRICAL_SURFACE ( 'NONE', #301, 0.1999999999999987900 ) ;
#155 = VECTOR ( 'NONE', #175, 1000.000000000000000 ) ;
#156 = CARTESIAN_POINT ( 'NONE',  ( 44.19999999999602400, 44.80000000000009700, -8.673617379884035500E-016 ) ) ;
#157 = LINE ( 'NONE', #174, #143 ) ;
#158 = FACE_OUTER_BOUND ( 'NONE', #242, .T. ) ;
#159 = FACE_OUTER_BOUND ( 'NONE', #312, .T. ) ;
#160 = PRODUCT_DEFINITION ( 'UNKNOWN', '', #294, #260 ) ;
#161 = VECTOR ( 'NONE', #203, 1000.000000000000000 ) ;
#162 = DIRECTION ( 'NONE',  ( -0.0000000000000000000, -0.0000000000000000000, -1.000000000000000000 ) ) ;
#163 = FACE_OUTER_BOUND ( 'NONE', #186, .T. ) ;
#164 = AXIS2_PLACEMENT_3D ( 'NONE', #25, #8, #6 ) ;
#165 = DIRECTION ( 'NONE',  ( 1.000000000000000000, -0.0000000000000000000, 0.0000000000000000000 ) ) ;
#166 = CARTESIAN_POINT ( 'NONE',  ( 49.19999999999558300, 39.80000000000054400, 1.500000000000000000 ) ) ;
#167 = FACE_OUTER_BOUND ( 'NONE', #177, .T. ) ;
#168 = FACE_OUTER_BOUND ( 'NONE', #189, .T. ) ;
#169 = LINE ( 'NONE', #197, #155 ) ;
#170 = FACE_OUTER_BOUND ( 'NONE', #17, .T. ) ;
#171 = CARTESIAN_POINT ( 'NONE',  ( -0.1999999999999953200, 39.80000000000006800, 0.0000000000000000000 ) ) ;
#172 = LINE ( 'NONE', #112, #161 ) ;
#173 = ORIENTED_EDGE ( 'NONE', *, *, #319, .T. ) ;
#174 = CARTESIAN_POINT ( 'NONE',  ( 49.19999999999558300, -5.421010862427522200E-016, 1.500000000000000000 ) ) ;
#175 = DIRECTION ( 'NONE',  ( -1.000000000000000000, 0.0000000000000000000, -0.0000000000000000000 ) ) ;
#176 = CARTESIAN_POINT ( 'NONE',  ( 44.19999999999602400, 44.80000000000010400, 1.500000000000000000 ) ) ;
#177 = EDGE_LOOP ( 'NONE', ( #228, #229, #232, #237 ) ) ;
#178 = CARTESIAN_POINT ( 'NONE',  ( 48.99999999999557300, -0.1999999999999243200, 0.0000000000000000000 ) ) ;
#179 = VERTEX_POINT ( 'NONE', #146 ) ;
#180 = CARTESIAN_POINT ( 'NONE',  ( 2.954450920022999600E-015, 44.80000000000010400, 1.500000000000000000 ) ) ;
#181 = DIRECTION ( 'NONE',  ( 0.0000000000000000000, -0.0000000000000000000, -1.000000000000000000 ) ) ;
#182 = VERTEX_POINT ( 'NONE', #184 ) ;
#183 = VERTEX_POINT ( 'NONE', #142 ) ;
#184 = CARTESIAN_POINT ( 'NONE',  ( 48.99999999999557300, -0.1999999999999243200, 1.500000000000000000 ) ) ;
#185 = CARTESIAN_POINT ( 'NONE',  ( 49.19999999999558300, 7.598901976407779200E-014, 1.500000000000000000 ) ) ;
#186 = EDGE_LOOP ( 'NONE', ( #194, #199, #201, #202 ) ) ;
#187 = ORIENTED_EDGE ( 'NONE', *, *, #321, .F. ) ;
#188 = DIRECTION ( 'NONE',  ( 0.7071067811865474600, 0.7071067811865476800, 0.0000000000000000000 ) ) ;
#189 = EDGE_LOOP ( 'NONE', ( #247, #249, #250, #251 ) ) ;
#190 = CARTESIAN_POINT ( 'NONE',  ( -0.1999999999999953200, 39.80000000000006800, 1.500000000000000000 ) ) ;
#191 = ADVANCED_BREP_SHAPE_REPRESENTATION ( '462169_APP-AVK 16_Beige', ( #335, #164 ), #288 ) ;
#192 = ORIENTED_EDGE ( 'NONE', *, *, #318, .T. ) ;
#193 = ORIENTED_EDGE ( 'NONE', *, *, #320, .T. ) ;
#194 = ORIENTED_EDGE ( 'NONE', *, *, #322, .T. ) ;
#195 = DIRECTION ( 'NONE',  ( -0.0000000000000000000, -1.000000000000000000, -0.0000000000000000000 ) ) ;
#196 = PRODUCT_DEFINITION_SHAPE ( 'NONE', 'NONE',  #160 ) ;
#197 = CARTESIAN_POINT ( 'NONE',  ( 2.954450920022999600E-015, -0.1999999999999243200, 1.500000000000000000 ) ) ;
#198 = CARTESIAN_POINT ( 'NONE',  ( -0.1999999999999953200, 39.80000000000006800, 1.500000000000000000 ) ) ;
#199 = ORIENTED_EDGE ( 'NONE', *, *, #323, .T. ) ;
#200 = DIRECTION ( 'NONE',  ( -0.0000000000000000000, -0.0000000000000000000, -1.000000000000000000 ) ) ;
#201 = ORIENTED_EDGE ( 'NONE', *, *, #324, .F. ) ;
#202 = ORIENTED_EDGE ( 'NONE', *, *, #326, .T. ) ;
#203 = DIRECTION ( 'NONE',  ( 0.0000000000000000000, -0.0000000000000000000, -1.000000000000000000 ) ) ;
#204 = ORIENTED_EDGE ( 'NONE', *, *, #324, .T. ) ;
#205 = ORIENTED_EDGE ( 'NONE', *, *, #327, .T. ) ;
#206 = ORIENTED_EDGE ( 'NONE', *, *, #321, .T. ) ;
#207 = ADVANCED_FACE ( 'NONE', ( #167 ), #147, .F. ) ;
#208 = CARTESIAN_POINT ( 'NONE',  ( 2.954450920022999600E-015, -5.421010862427522200E-016, 1.500000000000000000 ) ) ;
#209 = ADVANCED_FACE ( 'NONE', ( #159 ), #132, .F. ) ;
#210 = VERTEX_POINT ( 'NONE', #130 ) ;
#211 = CARTESIAN_POINT ( 'NONE',  ( -0.1999999999999970700, 8.944667923005411600E-016, 1.500000000000000000 ) ) ;
#212 = DIRECTION ( 'NONE',  ( -1.000000000000000000, 0.0000000000000000000, 0.0000000000000000000 ) ) ;
#213 = ADVANCED_FACE ( 'NONE', ( #158 ), #87, .F. ) ;
#214 = ADVANCED_FACE ( 'NONE', ( #109 ), #101, .F. ) ;
#215 = DIRECTION ( 'NONE',  ( -0.0000000000000000000, -0.0000000000000000000, -1.000000000000000000 ) ) ;
#216 = ADVANCED_FACE ( 'NONE', ( #168 ), #76, .F. ) ;
#217 = ORIENTED_EDGE ( 'NONE', *, *, #329, .T. ) ;
#218 = CARTESIAN_POINT ( 'NONE',  ( -0.1999999999999970700, 1.805414547273286300E-016, 0.0000000000000000000 ) ) ;
#219 = ORIENTED_EDGE ( 'NONE', *, *, #330, .T. ) ;
#220 = ADVANCED_FACE ( 'NONE', ( #170 ), #298, .F. ) ;
#221 = ORIENTED_EDGE ( 'NONE', *, *, #332, .T. ) ;
#222 = CARTESIAN_POINT ( 'NONE',  ( 48.99999999999557300, 7.565020658517607200E-014, 1.500000000000000000 ) ) ;
#223 = DIRECTION ( 'NONE',  ( -1.000000000000000000, 0.0000000000000000000, 0.0000000000000000000 ) ) ;
#224 = ORIENTED_EDGE ( 'NONE', *, *, #333, .T. ) ;
#225 = VERTEX_POINT ( 'NONE', #240 ) ;
#226 = VERTEX_POINT ( 'NONE', #238 ) ;
#227 = VERTEX_POINT ( 'NONE', #121 ) ;
#228 = ORIENTED_EDGE ( 'NONE', *, *, #320, .F. ) ;
#229 = ORIENTED_EDGE ( 'NONE', *, *, #334, .T. ) ;
#230 = DIRECTION ( 'NONE',  ( 0.7071067811865474600, -0.7071067811865474600, 0.0000000000000000000 ) ) ;
#231 = CARTESIAN_POINT ( 'NONE',  ( 44.19999999999602400, 44.80000000000009700, 1.500000000000000200 ) ) ;
#232 = ORIENTED_EDGE ( 'NONE', *, *, #287, .T. ) ;
#233 = DIRECTION ( 'NONE',  ( -0.7071067811865475700, -0.7071067811865475700, 0.0000000000000000000 ) ) ;
#234 = PLANE ( 'NONE',  #303 ) ;
#235 = CARTESIAN_POINT ( 'NONE',  ( 44.19999999999602400, 44.80000000000010400, 1.500000000000000000 ) ) ;
#236 = CARTESIAN_POINT ( 'NONE',  ( 4.800000000000035300, 44.80000000000009700, 0.0000000000000000000 ) ) ;
#237 = ORIENTED_EDGE ( 'NONE', *, *, #329, .F. ) ;
#238 = CARTESIAN_POINT ( 'NONE',  ( 5.102166917417003200E-015, -0.2000000000000005100, 0.0000000000000000000 ) ) ;
#239 = ORIENTED_EDGE ( 'NONE', *, *, #287, .F. ) ;
#240 = CARTESIAN_POINT ( 'NONE',  ( 4.946672411965114000E-015, -0.1999999999999624000, 1.500000000000000000 ) ) ;
#241 = ORIENTED_EDGE ( 'NONE', *, *, #286, .T. ) ;
#242 = EDGE_LOOP ( 'NONE', ( #239, #241, #244, #246 ) ) ;
#243 = CARTESIAN_POINT ( 'NONE',  ( 4.800000000000036200, 44.80000000000009700, 1.500000000000000200 ) ) ;
#244 = ORIENTED_EDGE ( 'NONE', *, *, #61, .T. ) ;
#245 = VERTEX_POINT ( 'NONE', #243 ) ;
#246 = ORIENTED_EDGE ( 'NONE', *, *, #330, .F. ) ;
#247 = ORIENTED_EDGE ( 'NONE', *, *, #61, .F. ) ;
#248 = EDGE_LOOP ( 'NONE', ( #173, #193, #187, #192 ) ) ;
#249 = ORIENTED_EDGE ( 'NONE', *, *, #314, .T. ) ;
#250 = ORIENTED_EDGE ( 'NONE', *, *, #315, .T. ) ;
#251 = ORIENTED_EDGE ( 'NONE', *, *, #331, .F. ) ;
#252 = ORIENTED_EDGE ( 'NONE', *, *, #315, .F. ) ;
#253 = ORIENTED_EDGE ( 'NONE', *, *, #316, .T. ) ;
#254 = ORIENTED_EDGE ( 'NONE', *, *, #317, .T. ) ;
#255 = ORIENTED_EDGE ( 'NONE', *, *, #332, .F. ) ;
#256 = ORIENTED_EDGE ( 'NONE', *, *, #317, .F. ) ;
#257 = ORIENTED_EDGE ( 'NONE', *, *, #308, .T. ) ;
#258 = ORIENTED_EDGE ( 'NONE', *, *, #326, .F. ) ;
#259 = ORIENTED_EDGE ( 'NONE', *, *, #333, .F. ) ;
#260 = PRODUCT_DEFINITION_CONTEXT ( 'detailed design', #50, 'design' ) ;
#261 = EDGE_LOOP ( 'NONE', ( #204, #205, #206, #217, #219, #325, #221, #224 ) ) ;
#262 = EDGE_LOOP ( 'NONE', ( #252, #253, #254, #255 ) ) ;
#263 = ORIENTED_EDGE ( 'NONE', *, *, #323, .F. ) ;
#264 = ADVANCED_FACE ( 'NONE', ( #137 ), #234, .F. ) ;
#265 = ORIENTED_EDGE ( 'NONE', *, *, #297, .T. ) ;
#266 = ORIENTED_EDGE ( 'NONE', *, *, #318, .F. ) ;
#267 = ORIENTED_EDGE ( 'NONE', *, *, #327, .F. ) ;
#268 = ORIENTED_EDGE ( 'NONE', *, *, #297, .F. ) ;
#269 = ORIENTED_EDGE ( 'NONE', *, *, #322, .F. ) ;
#270 = ORIENTED_EDGE ( 'NONE', *, *, #308, .F. ) ;
#271 = ORIENTED_EDGE ( 'NONE', *, *, #316, .F. ) ;
#272 = ORIENTED_EDGE ( 'NONE', *, *, #314, .F. ) ;
#273 = ORIENTED_EDGE ( 'NONE', *, *, #286, .F. ) ;
#274 = ORIENTED_EDGE ( 'NONE', *, *, #334, .F. ) ;
#275 = ORIENTED_EDGE ( 'NONE', *, *, #319, .F. ) ;
#276 = VERTEX_POINT ( 'NONE', #236 ) ;
#277 = EDGE_LOOP ( 'NONE', ( #256, #257, #258, #259 ) ) ;
#278 = CLOSED_SHELL ( 'NONE', ( #209, #220, #214, #264, #216, #213, #207, #328, #280, #281 ) ) ;
#279 = VERTEX_POINT ( 'NONE', #218 ) ;
#280 = ADVANCED_FACE ( 'NONE', ( #163 ), #154, .T. ) ;
#281 = ADVANCED_FACE ( 'NONE', ( #140 ), #127, .T. ) ;
#282 =( GEOMETRIC_REPRESENTATION_CONTEXT ( 3 ) GLOBAL_UNCERTAINTY_ASSIGNED_CONTEXT ( ( #338 ) ) GLOBAL_UNIT_ASSIGNED_CONTEXT ( ( #11, #10, #9 ) ) REPRESENTATION_CONTEXT ( 'NONE', 'WORKASPACE' ) );
#283 = MECHANICAL_DESIGN_GEOMETRIC_PRESENTATION_REPRESENTATION (  '', ( #285 ), #282 ) ;
#284 = PRESENTATION_LAYER_ASSIGNMENT (  '', '', ( #285 ) ) ;
#285 = STYLED_ITEM ( 'NONE', ( #3 ), #191 ) ;
#286 = EDGE_CURVE ( 'NONE', #179, #245, #151, .T. ) ;
#287 = EDGE_CURVE ( 'NONE', #179, #2, #133, .T. ) ;
#288 =( GEOMETRIC_REPRESENTATION_CONTEXT ( 3 ) GLOBAL_UNCERTAINTY_ASSIGNED_CONTEXT ( ( #7 ) ) GLOBAL_UNIT_ASSIGNED_CONTEXT ( ( #20, #19, #18 ) ) REPRESENTATION_CONTEXT ( 'NONE', 'WORKASPACE' ) );
#289 = VERTEX_POINT ( 'NONE', #185 ) ;
#290 =( GEOMETRIC_REPRESENTATION_CONTEXT ( 3 ) GLOBAL_UNCERTAINTY_ASSIGNED_CONTEXT ( ( #337 ) ) GLOBAL_UNIT_ASSIGNED_CONTEXT ( ( #29, #28, #27 ) ) REPRESENTATION_CONTEXT ( 'NONE', 'WORKASPACE' ) );
#291 = MECHANICAL_DESIGN_GEOMETRIC_PRESENTATION_REPRESENTATION (  '', ( #295 ), #290 ) ;
#292 = PRESENTATION_LAYER_ASSIGNMENT (  '', '', ( #295 ) ) ;
#293 = AXIS2_PLACEMENT_3D ( 'NONE', #70, #65, #64 ) ;
#294 = PRODUCT_DEFINITION_FORMATION_WITH_SPECIFIED_SOURCE ( 'ANY', '', #26, .NOT_KNOWN. ) ;
#295 = STYLED_ITEM ( 'NONE', ( #55 ), #335 ) ;
#296 = AXIS2_PLACEMENT_3D ( 'NONE', #92, #90, #88 ) ;
#297 = EDGE_CURVE ( 'NONE', #182, #225, #169, .T. ) ;
#298 = PLANE ( 'NONE',  #305 ) ;
#299 = AXIS2_PLACEMENT_3D ( 'NONE', #98, #97, #96 ) ;
#300 = AXIS2_PLACEMENT_3D ( 'NONE', #208, #200, #223 ) ;
#301 = AXIS2_PLACEMENT_3D ( 'NONE', #222, #215, #212 ) ;
#302 = AXIS2_PLACEMENT_3D ( 'NONE', #110, #108, #104 ) ;
#303 = AXIS2_PLACEMENT_3D ( 'NONE', #235, #233, #230 ) ;
#304 = AXIS2_PLACEMENT_3D ( 'NONE', #128, #125, #123 ) ;
#305 = AXIS2_PLACEMENT_3D ( 'NONE', #310, #43, #23 ) ;
#306 = AXIS2_PLACEMENT_3D ( 'NONE', #74, #40, #36 ) ;
#307 = AXIS2_PLACEMENT_3D ( 'NONE', #52, #53, #51 ) ;
#308 = EDGE_CURVE ( 'NONE', #227, #289, #157, .T. ) ;
#309 = AXIS2_PLACEMENT_3D ( 'NONE', #34, #78, #77 ) ;
#310 = CARTESIAN_POINT ( 'NONE',  ( 48.99999999999557300, -0.1999999999999243200, 1.500000000000000000 ) ) ;
#311 = AXIS2_PLACEMENT_3D ( 'NONE', #148, #106, #102 ) ;
#312 = EDGE_LOOP ( 'NONE', ( #268, #269, #270, #271, #272, #273, #274, #275 ) ) ;
#313 = AXIS2_PLACEMENT_3D ( 'NONE', #211, #131, #153 ) ;
#314 = EDGE_CURVE ( 'NONE', #245, #30, #126, .T. ) ;
#315 = EDGE_CURVE ( 'NONE', #30, #4, #122, .T. ) ;
#316 = EDGE_CURVE ( 'NONE', #30, #227, #149, .T. ) ;
#317 = EDGE_CURVE ( 'NONE', #227, #183, #138, .T. ) ;
#318 = EDGE_CURVE ( 'NONE', #226, #225, #116, .T. ) ;
#319 = EDGE_CURVE ( 'NONE', #225, #210, #119, .T. ) ;
#320 = EDGE_CURVE ( 'NONE', #210, #279, #111, .T. ) ;
#321 = EDGE_CURVE ( 'NONE', #226, #279, #107, .T. ) ;
#322 = EDGE_CURVE ( 'NONE', #289, #182, #114, .T. ) ;
#323 = EDGE_CURVE ( 'NONE', #182, #5, #103, .T. ) ;
#324 = EDGE_CURVE ( 'NONE', #336, #5, #95, .T. ) ;
#325 = ORIENTED_EDGE ( 'NONE', *, *, #331, .T. ) ;
#326 = EDGE_CURVE ( 'NONE', #336, #289, #100, .T. ) ;
#327 = EDGE_CURVE ( 'NONE', #5, #226, #89, .T. ) ;
#328 = ADVANCED_FACE ( 'NONE', ( #79 ), #82, .T. ) ;
#329 = EDGE_CURVE ( 'NONE', #279, #2, #75, .T. ) ;
#330 = EDGE_CURVE ( 'NONE', #2, #276, #91, .T. ) ;
#331 = EDGE_CURVE ( 'NONE', #276, #4, #73, .T. ) ;
#332 = EDGE_CURVE ( 'NONE', #4, #183, #71, .T. ) ;
#333 = EDGE_CURVE ( 'NONE', #183, #336, #68, .T. ) ;
#334 = EDGE_CURVE ( 'NONE', #210, #179, #63, .T. ) ;
#335 = MANIFOLD_SOLID_BREP ( 'Cut-Extrude2', #278 ) ;
#336 = VERTEX_POINT ( 'NONE', #38 ) ;
#337 = UNCERTAINTY_MEASURE_WITH_UNIT (LENGTH_MEASURE( 1.000000000000000100E-005 ), #29, 'distance_accuracy_value', 'NONE');
#338 = UNCERTAINTY_MEASURE_WITH_UNIT (LENGTH_MEASURE( 1.000000000000000100E-005 ), #11, 'distance_accuracy_value', 'NONE');
ENDSEC;
END-ISO-10303-21;
